0
SECTION
2
HEADER
9
$INSUNITS
70
4
9
$ACADVER
1
AC1014
9
$HANDSEED
5
FFFF
0
ENDSEC
0
SECTION
2
TABLES
0
TABLE
2
VPORT
5
8
100
AcDbSymbolTable
0
ENDTAB
0
TABLE
2
LTYPE
5
5
100
AcDbSymbolTable
0
LTYPE
5
14
100
AcDbSymbolTableRecord
100
AcDbLinetypeTableRecord
2
BYBLOCK
70
0
0
LTYPE
5
15
100
AcDbSymbolTableRecord
100
AcDbLinetypeTableRecord
2
BYLAYER
70
0
0
ENDTAB
0
TABLE
2
LAYER
5
2
100
AcDbSymbolTable
70
2
0
LAYER
5
50
100
AcDbSymbolTableRecord
100
AcDbLayerTableRecord
2
0
70
0
6
CONTINUOUS
0
ENDTAB
0
TABLE
2
STYLE
5
3
100
AcDbSymbolTable
70
1
0
STYLE
5
11
100
AcDbSymbolTableRecord
100
AcDbTextStyleTableRecord
2
STANDARD
70
0
0
ENDTAB
0
TABLE
2
VIEW
5
6
100
AcDbSymbolTable
70
0
0
ENDTAB
0
TABLE
2
UCS
5
7
100
AcDbSymbolTable
70
0
0
ENDTAB
0
TABLE
2
APPID
5
9
100
AcDbSymbolTable
70
2
0
APPID
5
12
100
AcDbSymbolTableRecord
100
AcDbRegAppTableRecord
2
ACAD
70
0
0
ENDTAB
0
TABLE
2
DIMSTYLE
5
A
100
AcDbSymbolTable
70
1
0
ENDTAB
0
TABLE
2
BLOCK_RECORD
5
1
100
AcDbSymbolTable
70
1
0
BLOCK_RECORD
5
1F
100
AcDbSymbolTableRecord
100
AcDbBlockTableRecord
2
*MODEL_SPACE
0
BLOCK_RECORD
5
1B
100
AcDbSymbolTableRecord
100
AcDbBlockTableRecord
2
*PAPER_SPACE
0
ENDTAB
0
ENDSEC
0
SECTION
2
BLOCKS
0
BLOCK
5
20
100
AcDbEntity
100
AcDbBlockBegin
2
*MODEL_SPACE
0
ENDBLK
5
21
100
AcDbEntity
100
AcDbBlockEnd
0
BLOCK
5
1C
100
AcDbEntity
100
AcDbBlockBegin
2
*PAPER_SPACE
0
ENDBLK
5
1D
100
AcDbEntity
100
AcDbBlockEnd
0
ENDSEC
0
SECTION
2
ENTITIES
0
LWPOLYLINE
5
100
100
AcDbEntity
8
0
100
AcDbPolyline
90
4
70
1
43
0.0
10
387.40000000000003
20
107.40000000000001
10
405
20
107.40000000000001
10
405
20
125
10
387.40000000000003
20
125
0
LWPOLYLINE
5
101
100
AcDbEntity
8
0
100
AcDbPolyline
90
4
70
1
43
0.0
10
405
20
67.400000000000006
10
405
20
85
10
387.40000000000003
20
85
10
387.40000000000003
20
67.400000000000006
0
LWPOLYLINE
5
102
100
AcDbEntity
8
0
100
AcDbPolyline
90
4
70
1
43
0.0
10
405
20
27.400000000000002
10
405
20
45
10
387.40000000000003
20
45
10
387.40000000000003
20
27.400000000000002
0
LWPOLYLINE
5
103
100
AcDbEntity
8
0
100
AcDbPolyline
90
4
70
1
43
0.0
10
94.999999999999986
20
150
10
94.999999999999986
20
167.60000000000002
10
60
20
167.60000000000002
10
60
20
150
0
LWPOLYLINE
5
104
100
AcDbEntity
8
0
100
AcDbPolyline
90
4
70
1
43
0.0
10
254.99999999999997
20
150
10
254.99999999999997
20
167.60000000000002
10
220
20
167.60000000000002
10
220
20
150
0
LWPOLYLINE
5
105
100
AcDbEntity
8
0
100
AcDbPolyline
90
4
70
1
43
0.0
10
335
20
150
10
335
20
167.60000000000002
10
300
20
167.60000000000002
10
300
20
150
0
LWPOLYLINE
5
106
100
AcDbEntity
8
0
100
AcDbPolyline
90
4
70
1
43
0.0
10
174.99999999999997
20
150
10
174.99999999999997
20
167.60000000000002
10
140
20
167.60000000000002
10
140
20
150
0
LWPOLYLINE
5
107
100
AcDbEntity
8
0
100
AcDbPolyline
90
4
70
1
43
0.0
10
415
20
150
10
415
20
167.60000000000002
10
380
20
167.60000000000002
10
380
20
150
0
LWPOLYLINE
5
108
100
AcDbEntity
8
0
100
AcDbPolyline
90
4
70
1
43
0.0
10
495
20
150
10
495
20
167.60000000000002
10
460
20
167.60000000000002
10
460
20
150
0
LWPOLYLINE
5
109
100
AcDbEntity
8
0
100
AcDbPolyline
90
4
70
1
43
0.0
10
575
20
150
10
575
20
167.60000000000002
10
540
20
167.60000000000002
10
540
20
150
0
LWPOLYLINE
5
110
100
AcDbEntity
8
0
100
AcDbPolyline
90
4
70
1
43
0.0
10
655
20
150
10
655
20
167.60000000000002
10
620
20
167.60000000000002
10
620
20
150
0
LWPOLYLINE
5
111
100
AcDbEntity
8
0
100
AcDbPolyline
90
4
70
1
43
0.0
10
735
20
150
10
735
20
167.60000000000002
10
700
20
167.60000000000002
10
700
20
150
0
LWPOLYLINE
5
112
100
AcDbEntity
8
0
100
AcDbPolyline
90
44
70
1
43
0.0
10
800
20
198.61333333333334
10
808.70000000000005
20
198.61333333333334
10
808.70000000000005
20
181.21333333333337
10
800
20
181.21333333333337
10
800
20
158.61333333333334
10
808.70000000000005
20
158.61333333333334
10
808.70000000000005
20
141.21333333333337
10
800
20
141.21333333333337
10
800
20
118.61333333333334
10
808.70000000000005
20
118.61333333333334
10
808.70000000000005
20
101.21333333333337
10
800
20
101.21333333333337
10
800
20
78.613333333333344
10
808.70000000000005
20
78.613333333333344
10
808.70000000000005
20
61.21333333333336
10
800
20
61.21333333333336
10
800
20
38.613333333333344
10
808.70000000000005
20
38.613333333333344
10
808.70000000000005
20
21.21333333333336
10
800
20
21.21333333333336
10
800
20
0
10
0
20
0
10
0
20
22.600000000000016
10
-8.7000000000000099
20
22.600000000000016
10
-8.6999999999999922
20
40
10
0
20
40
10
0
20
62.600000000000016
10
-8.7000000000000099
20
62.600000000000016
10
-8.6999999999999922
20
80
10
0
20
80
10
0
20
102.60000000000002
10
-8.7000000000000099
20
102.60000000000002
10
-8.6999999999999922
20
120
10
0
20
120
10
0
20
142.60000000000002
10
-8.7000000000000099
20
142.60000000000002
10
-8.6999999999999922
20
160
10
0
20
160
10
0
20
182.60000000000002
10
-8.7000000000000099
20
182.60000000000002
10
-8.6999999999999922
20
200
10
0
20
200
10
0
20
220
10
800
20
220
0
ENDSEC
0
SECTION
2
OBJECTS
0
DICTIONARY
5
C
100
AcDbDictionary
3
ACAD_GROUP
350
D
3
ACAD_MLINESTYLE
350
17
0
DICTIONARY
5
D
100
AcDbDictionary
0
DICTIONARY
5
1A
330
C
100
AcDbDictionary
0
DICTIONARY
5
17
100
AcDbDictionary
0
ENDSEC
0
EOF
